ISO-10303-21;
HEADER;
FILE_DESCRIPTION (( 'STEP AP203' ),
    '1' );
FILE_NAME ('MHWP-25.4-830.STEP',
    '2020-12-22T09:27:32',
    ( '' ),
    ( '' ),
    'SwSTEP 2.0',
    'SolidWorks 2020',
    '' );
FILE_SCHEMA (( 'CONFIG_CONTROL_DESIGN' ));
ENDSEC;

DATA;
#1 = CARTESIAN_POINT ( 'NONE',  ( -1.187907395172932594E-15, 0.000000000000000000, 0.000000000000000000 ) ) ;
#2 = CC_DESIGN_PERSON_AND_ORGANIZATION_ASSIGNMENT ( #125, #85, ( #93 ) ) ;
#3 = SHAPE_DEFINITION_REPRESENTATION ( #17, #175 ) ;
#4 = CARTESIAN_POINT ( 'NONE',  ( 1.999999999999998224, 1.555301434917138433E-15, -12.69999999999999929 ) ) ;
#5 = COORDINATED_UNIVERSAL_TIME_OFFSET ( 8, 0, .AHEAD. ) ;
#6 = FACE_OUTER_BOUND ( 'NONE', #127, .T. ) ;
#7 = DATE_AND_TIME ( #19, #53 ) ;
#8 = ADVANCED_FACE ( 'NONE', ( #47 ), #139, .T. ) ;
#9 = ORIENTED_EDGE ( 'NONE', *, *, #143, .T. ) ;
#10 = DIRECTION ( 'NONE',  ( -1.000000000000000000, -0.000000000000000000, -0.000000000000000000 ) ) ;
#11 =( GEOMETRIC_REPRESENTATION_CONTEXT ( 3 ) GLOBAL_UNCERTAINTY_ASSIGNED_CONTEXT ( ( #76 ) ) GLOBAL_UNIT_ASSIGNED_CONTEXT ( ( #24, #49, #99 ) ) REPRESENTATION_CONTEXT ( 'NONE', 'WORKASPACE' ) );
#12 = ADVANCED_FACE ( 'NONE', ( #6 ), #58, .T. ) ;
#13 = COORDINATED_UNIVERSAL_TIME_OFFSET ( 8, 0, .AHEAD. ) ;
#14 = APPROVAL_ROLE ( '' ) ;
#15 = CARTESIAN_POINT ( 'NONE',  ( -1.187907395172932594E-15, 1.555301434917138433E-15, -12.69999999999999929 ) ) ;
#16 = PERSON_AND_ORGANIZATION ( #36, #149 ) ;
#17 = PRODUCT_DEFINITION_SHAPE ( 'NONE', 'NONE',  #91 ) ;
#18 = ORIENTED_EDGE ( 'NONE', *, *, #163, .F. ) ;
#19 = CALENDAR_DATE ( 2020, 22, 12 ) ;
#20 = EDGE_LOOP ( 'NONE', ( #141, #9, #144, #37 ) ) ;
#21 = AXIS2_PLACEMENT_3D ( 'NONE', #101, #123, #155 ) ;
#22 = EDGE_CURVE ( 'NONE', #61, #71, #102, .T. ) ;
#23 = PERSON_AND_ORGANIZATION ( #36, #149 ) ;
#24 =( LENGTH_UNIT ( ) NAMED_UNIT ( * ) SI_UNIT ( .MILLI., .METRE. ) );
#25 = LOCAL_TIME ( 17, 27, 32.00000000000000000, #48 ) ;
#26 = DESIGN_CONTEXT ( 'detailed design', #137, 'design' ) ;
#27 = ORIENTED_EDGE ( 'NONE', *, *, #22, .T. ) ;
#28 = AXIS2_PLACEMENT_3D ( 'NONE', #1, #57, #126 ) ;
#29 = APPROVAL ( #128, 'UNSPECIFIED' ) ;
#30 = DIRECTION ( 'NONE',  ( -1.000000000000000000, -0.000000000000000000, -0.000000000000000000 ) ) ;
#31 = CALENDAR_DATE ( 2020, 22, 12 ) ;
#32 = LINE ( 'NONE', #84, #38 ) ;
#33 = PERSON_AND_ORGANIZATION ( #36, #149 ) ;
#34 = ORIENTED_EDGE ( 'NONE', *, *, #96, .F. ) ;
#35 = PERSON_AND_ORGANIZATION_ROLE ( 'classification_officer' ) ;
#36 = PERSON ( 'UNSPECIFIED', 'UNSPECIFIED', 'UNSPECIFIED', ('UNSPECIFIED'), ('UNSPECIFIED'), ('UNSPECIFIED') ) ;
#37 = ORIENTED_EDGE ( 'NONE', *, *, #22, .F. ) ;
#38 = VECTOR ( 'NONE', #170, 1000.000000000000000 ) ;
#39 = EDGE_CURVE ( 'NONE', #71, #69, #77, .T. ) ;
#40 = AXIS2_PLACEMENT_3D ( 'NONE', #86, #10, #60 ) ;
#41 = ADVANCED_FACE ( 'NONE', ( #55 ), #108, .F. ) ;
#42 = VECTOR ( 'NONE', #30, 1000.000000000000000 ) ;
#43 = CARTESIAN_POINT ( 'NONE',  ( 0.000000000000000000, 0.000000000000000000, 0.000000000000000000 ) ) ;
#44 = CARTESIAN_POINT ( 'NONE',  ( 0.000000000000000000, 0.000000000000000000, 12.69999999999999929 ) ) ;
#45 = PRODUCT ( 'MHWP-25.4-830', 'MHWP-25.4-830', '', ( #114 ) ) ;
#46 = PERSON_AND_ORGANIZATION_ROLE ( 'design_supplier' ) ;
#47 = FACE_OUTER_BOUND ( 'NONE', #20, .T. ) ;
#48 = COORDINATED_UNIVERSAL_TIME_OFFSET ( 8, 0, .AHEAD. ) ;
#49 =( NAMED_UNIT ( * ) PLANE_ANGLE_UNIT ( ) SI_UNIT ( $, .RADIAN. ) );
#50 = CC_DESIGN_PERSON_AND_ORGANIZATION_ASSIGNMENT ( #161, #95, ( #45 ) ) ;
#51 = DIRECTION ( 'NONE',  ( 0.000000000000000000, 0.000000000000000000, -1.000000000000000000 ) ) ;
#52 = CLOSED_SHELL ( 'NONE', ( #8, #12, #41, #165 ) ) ;
#53 = LOCAL_TIME ( 17, 27, 32.00000000000000000, #133 ) ;
#54 = DATE_TIME_ROLE ( 'classification_date' ) ;
#55 = FACE_OUTER_BOUND ( 'NONE', #157, .T. ) ;
#56 = PERSON_AND_ORGANIZATION ( #36, #149 ) ;
#57 = DIRECTION ( 'NONE',  ( -1.000000000000000000, -0.000000000000000000, -0.000000000000000000 ) ) ;
#58 = CYLINDRICAL_SURFACE ( 'NONE', #75, 12.69999999999999929 ) ;
#59 = APPROVAL_PERSON_ORGANIZATION ( #33, #131, #142 ) ;
#60 = DIRECTION ( 'NONE',  ( 0.000000000000000000, 0.000000000000000000, 1.000000000000000000 ) ) ;
#61 = VERTEX_POINT ( 'NONE', #83 ) ;
#62 = PERSON_AND_ORGANIZATION ( #36, #149 ) ;
#63 = CC_DESIGN_PERSON_AND_ORGANIZATION_ASSIGNMENT ( #23, #73, ( #91 ) ) ;
#64 = CALENDAR_DATE ( 2020, 22, 12 ) ;
#65 = DATE_TIME_ROLE ( 'creation_date' ) ;
#66 = CARTESIAN_POINT ( 'NONE',  ( -1.187907395172932594E-15, 0.000000000000000000, 12.69999999999999929 ) ) ;
#67 = APPLICATION_CONTEXT ( 'configuration controlled 3d designs of mechanical parts and assemblies' ) ;
#68 = SECURITY_CLASSIFICATION_LEVEL ( 'unclassified' ) ;
#69 = VERTEX_POINT ( 'NONE', #15 ) ;
#70 = CALENDAR_DATE ( 2020, 22, 12 ) ;
#71 = VERTEX_POINT ( 'NONE', #66 ) ;
#72 = APPLICATION_PROTOCOL_DEFINITION ( 'international standard', 'config_control_design', 1994, #137 ) ;
#73 = PERSON_AND_ORGANIZATION_ROLE ( 'creator' ) ;
#74 = DIRECTION ( 'NONE',  ( 1.000000000000000000, 0.000000000000000000, 0.000000000000000000 ) ) ;
#75 = AXIS2_PLACEMENT_3D ( 'NONE', #43, #164, #169 ) ;
#76 = UNCERTAINTY_MEASURE_WITH_UNIT (LENGTH_MEASURE( 1.000000000000000082E-05 ), #24, 'distance_accuracy_value', 'NONE');
#77 = CIRCLE ( 'NONE', #158, 12.69999999999999929 ) ;
#78 = CIRCLE ( 'NONE', #40, 12.69999999999999929 ) ;
#79 = DATE_AND_TIME ( #64, #81 ) ;
#80 = DIRECTION ( 'NONE',  ( 0.000000000000000000, 0.000000000000000000, 1.000000000000000000 ) ) ;
#81 = LOCAL_TIME ( 17, 27, 32.00000000000000000, #13 ) ;
#82 = CARTESIAN_POINT ( 'NONE',  ( -1.187907395172932594E-15, 0.000000000000000000, 0.000000000000000000 ) ) ;
#83 = CARTESIAN_POINT ( 'NONE',  ( 1.999999999999998224, 0.000000000000000000, 12.69999999999999929 ) ) ;
#84 = CARTESIAN_POINT ( 'NONE',  ( 0.000000000000000000, 1.555301434917138433E-15, -12.69999999999999929 ) ) ;
#85 = PERSON_AND_ORGANIZATION_ROLE ( 'creator' ) ;
#86 = CARTESIAN_POINT ( 'NONE',  ( 1.999999999999998224, 0.000000000000000000, 0.000000000000000000 ) ) ;
#87 = VERTEX_POINT ( 'NONE', #4 ) ;
#88 = CC_DESIGN_PERSON_AND_ORGANIZATION_ASSIGNMENT ( #121, #35, ( #150 ) ) ;
#89 = APPROVAL_PERSON_ORGANIZATION ( #56, #29, #129 ) ;
#90 = DATE_AND_TIME ( #31, #174 ) ;
#91 = PRODUCT_DEFINITION ( 'UNKNOWN', '', #93, #26 ) ;
#92 = CIRCLE ( 'NONE', #173, 12.69999999999999929 ) ;
#93 = PRODUCT_DEFINITION_FORMATION_WITH_SPECIFIED_SOURCE ( 'ANY', '', #45, .NOT_KNOWN. ) ;
#94 = DIRECTION ( 'NONE',  ( -1.000000000000000000, 0.000000000000000000, -0.000000000000000000 ) ) ;
#95 = PERSON_AND_ORGANIZATION_ROLE ( 'design_owner' ) ;
#96 = EDGE_CURVE ( 'NONE', #69, #71, #115, .T. ) ;
#97 = AXIS2_PLACEMENT_3D ( 'NONE', #117, #171, #51 ) ;
#98 = FACE_OUTER_BOUND ( 'NONE', #113, .T. ) ;
#99 =( NAMED_UNIT ( * ) SI_UNIT ( $, .STERADIAN. ) SOLID_ANGLE_UNIT ( ) );
#100 = ORIENTED_EDGE ( 'NONE', *, *, #103, .F. ) ;
#101 = CARTESIAN_POINT ( 'NONE',  ( 0.000000000000000000, 0.000000000000000000, 0.000000000000000000 ) ) ;
#102 = LINE ( 'NONE', #44, #42 ) ;
#103 = EDGE_CURVE ( 'NONE', #61, #87, #92, .T. ) ;
#104 = CC_DESIGN_APPROVAL ( #29, ( #150 ) ) ;
#105 = APPROVAL_DATE_TIME ( #151, #29 ) ;
#106 = CARTESIAN_POINT ( 'NONE',  ( 1.999999999999998224, 0.000000000000000000, 0.000000000000000000 ) ) ;
#107 = MANIFOLD_SOLID_BREP ( 'Ðý×', #52 ) ;
#108 = PLANE ( 'NONE',  #166 ) ;
#109 = APPROVAL_DATE_TIME ( #154, #119 ) ;
#110 = APPROVAL_PERSON_ORGANIZATION ( #62, #119, #14 ) ;
#111 = APPROVAL_DATE_TIME ( #7, #131 ) ;
#112 = CC_DESIGN_DATE_AND_TIME_ASSIGNMENT ( #90, #54, ( #150 ) ) ;
#113 = EDGE_LOOP ( 'NONE', ( #116, #136 ) ) ;
#114 = MECHANICAL_CONTEXT ( 'NONE', #67, 'mechanical' ) ;
#115 = CIRCLE ( 'NONE', #28, 12.69999999999999929 ) ;
#116 = ORIENTED_EDGE ( 'NONE', *, *, #39, .T. ) ;
#117 = CARTESIAN_POINT ( 'NONE',  ( -5.939536975864662969E-16, 12.69999999999999929, 0.000000000000000000 ) ) ;
#118 = ORIENTED_EDGE ( 'NONE', *, *, #143, .F. ) ;
#119 = APPROVAL ( #135, 'UNSPECIFIED' ) ;
#120 = CC_DESIGN_APPROVAL ( #131, ( #91 ) ) ;
#121 = PERSON_AND_ORGANIZATION ( #36, #149 ) ;
#122 = DIRECTION ( 'NONE',  ( -1.000000000000000000, -0.000000000000000000, -0.000000000000000000 ) ) ;
#123 = DIRECTION ( 'NONE',  ( -1.000000000000000000, -0.000000000000000000, -0.000000000000000000 ) ) ;
#124 = LOCAL_TIME ( 17, 27, 32.00000000000000000, #167 ) ;
#125 = PERSON_AND_ORGANIZATION ( #36, #149 ) ;
#126 = DIRECTION ( 'NONE',  ( 0.000000000000000000, 0.000000000000000000, 1.000000000000000000 ) ) ;
#127 = EDGE_LOOP ( 'NONE', ( #118, #162, #27, #34 ) ) ;
#128 = APPROVAL_STATUS ( 'not_yet_approved' ) ;
#129 = APPROVAL_ROLE ( '' ) ;
#130 = CC_DESIGN_APPROVAL ( #119, ( #93 ) ) ;
#131 = APPROVAL ( #146, 'UNSPECIFIED' ) ;
#132 = APPLICATION_PROTOCOL_DEFINITION ( 'international standard', 'config_control_design', 1994, #67 ) ;
#133 = COORDINATED_UNIVERSAL_TIME_OFFSET ( 8, 0, .AHEAD. ) ;
#134 = AXIS2_PLACEMENT_3D ( 'NONE', #160, #145, #74 ) ;
#135 = APPROVAL_STATUS ( 'not_yet_approved' ) ;
#136 = ORIENTED_EDGE ( 'NONE', *, *, #96, .T. ) ;
#137 = APPLICATION_CONTEXT ( 'configuration controlled 3d designs of mechanical parts and assemblies' ) ;
#138 = CALENDAR_DATE ( 2020, 22, 12 ) ;
#139 = CYLINDRICAL_SURFACE ( 'NONE', #21, 12.69999999999999929 ) ;
#140 = PLANE ( 'NONE',  #97 ) ;
#141 = ORIENTED_EDGE ( 'NONE', *, *, #103, .T. ) ;
#142 = APPROVAL_ROLE ( '' ) ;
#143 = EDGE_CURVE ( 'NONE', #87, #69, #32, .T. ) ;
#144 = ORIENTED_EDGE ( 'NONE', *, *, #39, .F. ) ;
#145 = DIRECTION ( 'NONE',  ( 0.000000000000000000, 0.000000000000000000, 1.000000000000000000 ) ) ;
#146 = APPROVAL_STATUS ( 'not_yet_approved' ) ;
#147 = CC_DESIGN_DATE_AND_TIME_ASSIGNMENT ( #79, #65, ( #91 ) ) ;
#148 = CC_DESIGN_PERSON_AND_ORGANIZATION_ASSIGNMENT ( #16, #46, ( #93 ) ) ;
#149 = ORGANIZATION ( 'UNSPECIFIED', 'UNSPECIFIED', '' ) ;
#150 = SECURITY_CLASSIFICATION ( '', '', #68 ) ;
#151 = DATE_AND_TIME ( #138, #124 ) ;
#152 = CARTESIAN_POINT ( 'NONE',  ( 1.999999999999999112, 12.69999999999999929, 0.000000000000000000 ) ) ;
#153 = DIRECTION ( 'NONE',  ( 0.000000000000000000, 0.000000000000000000, 1.000000000000000000 ) ) ;
#154 = DATE_AND_TIME ( #70, #25 ) ;
#155 = DIRECTION ( 'NONE',  ( 0.000000000000000000, 0.000000000000000000, 1.000000000000000000 ) ) ;
#156 = DIRECTION ( 'NONE',  ( -0.000000000000000000, 0.000000000000000000, 1.000000000000000000 ) ) ;
#157 = EDGE_LOOP ( 'NONE', ( #100, #18 ) ) ;
#158 = AXIS2_PLACEMENT_3D ( 'NONE', #82, #122, #80 ) ;
#159 = CC_DESIGN_SECURITY_CLASSIFICATION ( #150, ( #93 ) ) ;
#160 = CARTESIAN_POINT ( 'NONE',  ( 0.000000000000000000, 0.000000000000000000, 0.000000000000000000 ) ) ;
#161 = PERSON_AND_ORGANIZATION ( #36, #149 ) ;
#162 = ORIENTED_EDGE ( 'NONE', *, *, #163, .T. ) ;
#163 = EDGE_CURVE ( 'NONE', #87, #61, #78, .T. ) ;
#164 = DIRECTION ( 'NONE',  ( -1.000000000000000000, -0.000000000000000000, -0.000000000000000000 ) ) ;
#165 = ADVANCED_FACE ( 'NONE', ( #98 ), #140, .F. ) ;
#166 = AXIS2_PLACEMENT_3D ( 'NONE', #152, #94, #156 ) ;
#167 = COORDINATED_UNIVERSAL_TIME_OFFSET ( 8, 0, .AHEAD. ) ;
#168 = DIRECTION ( 'NONE',  ( -1.000000000000000000, -0.000000000000000000, -0.000000000000000000 ) ) ;
#169 = DIRECTION ( 'NONE',  ( 0.000000000000000000, 0.000000000000000000, 1.000000000000000000 ) ) ;
#170 = DIRECTION ( 'NONE',  ( -1.000000000000000000, -0.000000000000000000, -0.000000000000000000 ) ) ;
#171 = DIRECTION ( 'NONE',  ( 1.000000000000000000, 0.000000000000000000, 0.000000000000000000 ) ) ;
#172 = PRODUCT_RELATED_PRODUCT_CATEGORY ( 'detail', '', ( #45 ) ) ;
#173 = AXIS2_PLACEMENT_3D ( 'NONE', #106, #168, #153 ) ;
#174 = LOCAL_TIME ( 17, 27, 32.00000000000000000, #5 ) ;
#175 = ADVANCED_BREP_SHAPE_REPRESENTATION ( 'MHWP-25.4-830', ( #107, #134 ), #11 ) ;
ENDSEC;
END-ISO-10303-21;
